ISO-10303-21;
HEADER;
FILE_DESCRIPTION (( 'STEP AP203' ),
    '1' );
FILE_NAME ('BK7-LNPBSP-12.7-780.STEP',
    '2020-12-22T04:11:52',
    ( '' ),
    ( '' ),
    'SwSTEP 2.0',
    'SolidWorks 2020',
    '' );
FILE_SCHEMA (( 'CONFIG_CONTROL_DESIGN' ));
ENDSEC;

DATA;
#1 = CC_DESIGN_PERSON_AND_ORGANIZATION_ASSIGNMENT ( #60, #96, ( #86 ) ) ;
#2 = ADVANCED_FACE ( 'NONE', ( #103 ), #100, .T. ) ;
#3 = AXIS2_PLACEMENT_3D ( 'NONE', #74, #141, #127 ) ;
#4 = EDGE_LOOP ( 'NONE', ( #164, #142 ) ) ;
#5 = CARTESIAN_POINT ( 'NONE',  ( -4.102566777143633281E-16, 0.000000000000000000, 6.349999999999999645 ) ) ;
#6 = CARTESIAN_POINT ( 'NONE',  ( 0.000000000000000000, 0.000000000000000000, 0.000000000000000000 ) ) ;
#7 = VERTEX_POINT ( 'NONE', #37 ) ;
#8 = FACE_OUTER_BOUND ( 'NONE', #4, .T. ) ;
#9 = LOCAL_TIME ( 12, 11, 52.00000000000000000, #111 ) ;
#10 = EDGE_CURVE ( 'NONE', #54, #23, #91, .T. ) ;
#11 = PERSON_AND_ORGANIZATION_ROLE ( 'creator' ) ;
#12 = DIRECTION ( 'NONE',  ( 0.000000000000000000, 0.000000000000000000, 1.000000000000000000 ) ) ;
#13 = LOCAL_TIME ( 12, 11, 52.00000000000000000, #139 ) ;
#14 =( NAMED_UNIT ( * ) SI_UNIT ( $, .STERADIAN. ) SOLID_ANGLE_UNIT ( ) );
#15 = DIRECTION ( 'NONE',  ( 0.000000000000000000, 0.000000000000000000, 1.000000000000000000 ) ) ;
#16 = FACE_OUTER_BOUND ( 'NONE', #76, .T. ) ;
#17 = AXIS2_PLACEMENT_3D ( 'NONE', #133, #123, #171 ) ;
#18 = CC_DESIGN_DATE_AND_TIME_ASSIGNMENT ( #105, #83, ( #82 ) ) ;
#19 = PERSON_AND_ORGANIZATION ( #137, #126 ) ;
#20 = CALENDAR_DATE ( 2020, 22, 12 ) ;
#21 = LOCAL_TIME ( 12, 11, 52.00000000000000000, #99 ) ;
#22 = DIRECTION ( 'NONE',  ( 0.000000000000000000, 0.000000000000000000, 1.000000000000000000 ) ) ;
#23 = VERTEX_POINT ( 'NONE', #63 ) ;
#24 = APPLICATION_CONTEXT ( 'configuration controlled 3d designs of mechanical parts and assemblies' ) ;
#25 = DIRECTION ( 'NONE',  ( -1.000000000000000000, -0.000000000000000000, -0.000000000000000000 ) ) ;
#26 = CC_DESIGN_APPROVAL ( #98, ( #82 ) ) ;
#27 = EDGE_CURVE ( 'NONE', #54, #38, #88, .T. ) ;
#28 = CARTESIAN_POINT ( 'NONE',  ( 2.999999999999999112, 0.000000000000000000, 0.000000000000000000 ) ) ;
#29 = AXIS2_PLACEMENT_3D ( 'NONE', #28, #81, #68 ) ;
#30 = APPROVAL_STATUS ( 'not_yet_approved' ) ;
#31 = SHAPE_DEFINITION_REPRESENTATION ( #168, #130 ) ;
#32 = ADVANCED_FACE ( 'NONE', ( #8 ), #65, .F. ) ;
#33 = APPROVAL_STATUS ( 'not_yet_approved' ) ;
#34 = ORIENTED_EDGE ( 'NONE', *, *, #10, .T. ) ;
#35 = CC_DESIGN_SECURITY_CLASSIFICATION ( #93, ( #86 ) ) ;
#36 = DIRECTION ( 'NONE',  ( -1.000000000000000000, -0.000000000000000000, -0.000000000000000000 ) ) ;
#37 = CARTESIAN_POINT ( 'NONE',  ( -4.102566777143633281E-16, 7.776507174585692163E-16, -6.349999999999999645 ) ) ;
#38 = VERTEX_POINT ( 'NONE', #5 ) ;
#39 = APPROVAL_PERSON_ORGANIZATION ( #19, #90, #152 ) ;
#40 = EDGE_CURVE ( 'NONE', #38, #7, #115, .T. ) ;
#41 = CARTESIAN_POINT ( 'NONE',  ( 0.000000000000000000, 0.000000000000000000, 6.349999999999999645 ) ) ;
#42 = VECTOR ( 'NONE', #25, 1000.000000000000000 ) ;
#43 = CARTESIAN_POINT ( 'NONE',  ( 2.999999999999999556, 6.349999999999999645, 0.000000000000000000 ) ) ;
#44 = PERSON_AND_ORGANIZATION ( #137, #126 ) ;
#45 = EDGE_CURVE ( 'NONE', #23, #54, #104, .T. ) ;
#46 = PERSON_AND_ORGANIZATION_ROLE ( 'design_supplier' ) ;
#47 = AXIS2_PLACEMENT_3D ( 'NONE', #175, #57, #15 ) ;
#48 = PERSON_AND_ORGANIZATION_ROLE ( 'classification_officer' ) ;
#49 = PERSON_AND_ORGANIZATION ( #137, #126 ) ;
#50 = ORIENTED_EDGE ( 'NONE', *, *, #87, .F. ) ;
#51 = APPROVAL_PERSON_ORGANIZATION ( #138, #84, #71 ) ;
#52 = ORIENTED_EDGE ( 'NONE', *, *, #27, .F. ) ;
#53 = ORIENTED_EDGE ( 'NONE', *, *, #114, .F. ) ;
#54 = VERTEX_POINT ( 'NONE', #80 ) ;
#55 = LOCAL_TIME ( 12, 11, 52.00000000000000000, #169 ) ;
#56 = CALENDAR_DATE ( 2020, 22, 12 ) ;
#57 = DIRECTION ( 'NONE',  ( -1.000000000000000000, -0.000000000000000000, -0.000000000000000000 ) ) ;
#58 = DATE_AND_TIME ( #20, #13 ) ;
#59 = ADVANCED_FACE ( 'NONE', ( #16 ), #69, .F. ) ;
#60 = PERSON_AND_ORGANIZATION ( #137, #126 ) ;
#61 = CARTESIAN_POINT ( 'NONE',  ( -4.102566777143633281E-16, 0.000000000000000000, 0.000000000000000000 ) ) ;
#62 = VECTOR ( 'NONE', #94, 1000.000000000000000 ) ;
#63 = CARTESIAN_POINT ( 'NONE',  ( 2.999999999999999112, 7.776507174585692163E-16, -6.349999999999999645 ) ) ;
#64 = ORIENTED_EDGE ( 'NONE', *, *, #45, .F. ) ;
#65 = PLANE ( 'NONE',  #3 ) ;
#66 = CARTESIAN_POINT ( 'NONE',  ( 0.000000000000000000, 7.776507174585692163E-16, -6.349999999999999645 ) ) ;
#67 = DESIGN_CONTEXT ( 'detailed design', #135, 'design' ) ;
#68 = DIRECTION ( 'NONE',  ( 0.000000000000000000, 0.000000000000000000, 1.000000000000000000 ) ) ;
#69 = PLANE ( 'NONE',  #118 ) ;
#70 =( GEOMETRIC_REPRESENTATION_CONTEXT ( 3 ) GLOBAL_UNCERTAINTY_ASSIGNED_CONTEXT ( ( #167 ) ) GLOBAL_UNIT_ASSIGNED_CONTEXT ( ( #117, #159, #14 ) ) REPRESENTATION_CONTEXT ( 'NONE', 'WORKASPACE' ) );
#71 = APPROVAL_ROLE ( '' ) ;
#72 = APPROVAL_DATE_TIME ( #58, #90 ) ;
#73 = LOCAL_TIME ( 12, 11, 52.00000000000000000, #134 ) ;
#74 = CARTESIAN_POINT ( 'NONE',  ( -2.051283388571816641E-16, 6.349999999999999645, 0.000000000000000000 ) ) ;
#75 = ADVANCED_FACE ( 'NONE', ( #119 ), #157, .T. ) ;
#76 = EDGE_LOOP ( 'NONE', ( #113, #64 ) ) ;
#77 = AXIS2_PLACEMENT_3D ( 'NONE', #153, #36, #22 ) ;
#78 = MANIFOLD_SOLID_BREP ( 'Ðý×', #170 ) ;
#79 = CALENDAR_DATE ( 2020, 22, 12 ) ;
#80 = CARTESIAN_POINT ( 'NONE',  ( 2.999999999999999112, 0.000000000000000000, 6.349999999999999645 ) ) ;
#81 = DIRECTION ( 'NONE',  ( -1.000000000000000000, -0.000000000000000000, -0.000000000000000000 ) ) ;
#82 = PRODUCT_DEFINITION ( 'UNKNOWN', '', #86, #67 ) ;
#83 = DATE_TIME_ROLE ( 'creation_date' ) ;
#84 = APPROVAL ( #109, 'UNSPECIFIED' ) ;
#85 = CIRCLE ( 'NONE', #47, 6.349999999999999645 ) ;
#86 = PRODUCT_DEFINITION_FORMATION_WITH_SPECIFIED_SOURCE ( 'ANY', '', #158, .NOT_KNOWN. ) ;
#87 = EDGE_CURVE ( 'NONE', #7, #38, #85, .T. ) ;
#88 = LINE ( 'NONE', #41, #42 ) ;
#89 = CC_DESIGN_APPROVAL ( #84, ( #86 ) ) ;
#90 = APPROVAL ( #33, 'UNSPECIFIED' ) ;
#91 = CIRCLE ( 'NONE', #77, 6.349999999999999645 ) ;
#92 = PERSON_AND_ORGANIZATION ( #137, #126 ) ;
#93 = SECURITY_CLASSIFICATION ( '', '', #150 ) ;
#94 = DIRECTION ( 'NONE',  ( -1.000000000000000000, -0.000000000000000000, -0.000000000000000000 ) ) ;
#95 = CC_DESIGN_DATE_AND_TIME_ASSIGNMENT ( #125, #136, ( #93 ) ) ;
#96 = PERSON_AND_ORGANIZATION_ROLE ( 'creator' ) ;
#97 = CALENDAR_DATE ( 2020, 22, 12 ) ;
#98 = APPROVAL ( #30, 'UNSPECIFIED' ) ;
#99 = COORDINATED_UNIVERSAL_TIME_OFFSET ( 8, 0, .AHEAD. ) ;
#100 = CYLINDRICAL_SURFACE ( 'NONE', #146, 6.349999999999999645 ) ;
#101 = EDGE_LOOP ( 'NONE', ( #34, #140, #166, #52 ) ) ;
#102 = DIRECTION ( 'NONE',  ( 0.000000000000000000, 0.000000000000000000, 1.000000000000000000 ) ) ;
#103 = FACE_OUTER_BOUND ( 'NONE', #101, .T. ) ;
#104 = CIRCLE ( 'NONE', #29, 6.349999999999999645 ) ;
#105 = DATE_AND_TIME ( #56, #55 ) ;
#106 = LINE ( 'NONE', #66, #62 ) ;
#107 = APPLICATION_PROTOCOL_DEFINITION ( 'international standard', 'config_control_design', 1994, #24 ) ;
#108 = APPROVAL_DATE_TIME ( #173, #98 ) ;
#109 = APPROVAL_STATUS ( 'not_yet_approved' ) ;
#110 = CC_DESIGN_APPROVAL ( #90, ( #93 ) ) ;
#111 = COORDINATED_UNIVERSAL_TIME_OFFSET ( 8, 0, .AHEAD. ) ;
#112 = EDGE_LOOP ( 'NONE', ( #53, #128, #129, #50 ) ) ;
#113 = ORIENTED_EDGE ( 'NONE', *, *, #10, .F. ) ;
#114 = EDGE_CURVE ( 'NONE', #23, #7, #106, .T. ) ;
#115 = CIRCLE ( 'NONE', #132, 6.349999999999999645 ) ;
#116 = CC_DESIGN_PERSON_AND_ORGANIZATION_ASSIGNMENT ( #44, #11, ( #82 ) ) ;
#117 =( LENGTH_UNIT ( ) NAMED_UNIT ( * ) SI_UNIT ( .MILLI., .METRE. ) );
#118 = AXIS2_PLACEMENT_3D ( 'NONE', #43, #145, #149 ) ;
#119 = FACE_OUTER_BOUND ( 'NONE', #112, .T. ) ;
#120 = CARTESIAN_POINT ( 'NONE',  ( 0.000000000000000000, 0.000000000000000000, 0.000000000000000000 ) ) ;
#121 = PERSON_AND_ORGANIZATION ( #137, #126 ) ;
#122 = CC_DESIGN_PERSON_AND_ORGANIZATION_ASSIGNMENT ( #49, #46, ( #86 ) ) ;
#123 = DIRECTION ( 'NONE',  ( -1.000000000000000000, -0.000000000000000000, -0.000000000000000000 ) ) ;
#124 = PERSON_AND_ORGANIZATION ( #137, #126 ) ;
#125 = DATE_AND_TIME ( #97, #21 ) ;
#126 = ORGANIZATION ( 'UNSPECIFIED', 'UNSPECIFIED', '' ) ;
#127 = DIRECTION ( 'NONE',  ( 0.000000000000000000, 0.000000000000000000, -1.000000000000000000 ) ) ;
#128 = ORIENTED_EDGE ( 'NONE', *, *, #45, .T. ) ;
#129 = ORIENTED_EDGE ( 'NONE', *, *, #27, .T. ) ;
#130 = ADVANCED_BREP_SHAPE_REPRESENTATION ( 'BK7-LNPBSP-12.7-780', ( #78, #174 ), #70 ) ;
#131 = APPROVAL_ROLE ( '' ) ;
#132 = AXIS2_PLACEMENT_3D ( 'NONE', #61, #165, #155 ) ;
#133 = CARTESIAN_POINT ( 'NONE',  ( 0.000000000000000000, 0.000000000000000000, 0.000000000000000000 ) ) ;
#134 = COORDINATED_UNIVERSAL_TIME_OFFSET ( 8, 0, .AHEAD. ) ;
#135 = APPLICATION_CONTEXT ( 'configuration controlled 3d designs of mechanical parts and assemblies' ) ;
#136 = DATE_TIME_ROLE ( 'classification_date' ) ;
#137 = PERSON ( 'UNSPECIFIED', 'UNSPECIFIED', 'UNSPECIFIED', ('UNSPECIFIED'), ('UNSPECIFIED'), ('UNSPECIFIED') ) ;
#138 = PERSON_AND_ORGANIZATION ( #137, #126 ) ;
#139 = COORDINATED_UNIVERSAL_TIME_OFFSET ( 8, 0, .AHEAD. ) ;
#140 = ORIENTED_EDGE ( 'NONE', *, *, #114, .T. ) ;
#141 = DIRECTION ( 'NONE',  ( 1.000000000000000000, 0.000000000000000000, 0.000000000000000000 ) ) ;
#142 = ORIENTED_EDGE ( 'NONE', *, *, #87, .T. ) ;
#143 = PRODUCT_RELATED_PRODUCT_CATEGORY ( 'detail', '', ( #158 ) ) ;
#144 = DIRECTION ( 'NONE',  ( 1.000000000000000000, 0.000000000000000000, 0.000000000000000000 ) ) ;
#145 = DIRECTION ( 'NONE',  ( -1.000000000000000000, 0.000000000000000000, -0.000000000000000000 ) ) ;
#146 = AXIS2_PLACEMENT_3D ( 'NONE', #6, #154, #102 ) ;
#147 = APPLICATION_PROTOCOL_DEFINITION ( 'international standard', 'config_control_design', 1994, #135 ) ;
#148 = APPROVAL_PERSON_ORGANIZATION ( #92, #98, #131 ) ;
#149 = DIRECTION ( 'NONE',  ( -0.000000000000000000, 0.000000000000000000, 1.000000000000000000 ) ) ;
#150 = SECURITY_CLASSIFICATION_LEVEL ( 'unclassified' ) ;
#151 = APPROVAL_DATE_TIME ( #163, #84 ) ;
#152 = APPROVAL_ROLE ( '' ) ;
#153 = CARTESIAN_POINT ( 'NONE',  ( 2.999999999999999112, 0.000000000000000000, 0.000000000000000000 ) ) ;
#154 = DIRECTION ( 'NONE',  ( -1.000000000000000000, -0.000000000000000000, -0.000000000000000000 ) ) ;
#155 = DIRECTION ( 'NONE',  ( 0.000000000000000000, 0.000000000000000000, 1.000000000000000000 ) ) ;
#156 = CC_DESIGN_PERSON_AND_ORGANIZATION_ASSIGNMENT ( #124, #48, ( #93 ) ) ;
#157 = CYLINDRICAL_SURFACE ( 'NONE', #17, 6.349999999999999645 ) ;
#158 = PRODUCT ( 'BK7-LNPBSP-12.7-780', 'BK7-LNPBSP-12.7-780', '', ( #160 ) ) ;
#159 =( NAMED_UNIT ( * ) PLANE_ANGLE_UNIT ( ) SI_UNIT ( $, .RADIAN. ) );
#160 = MECHANICAL_CONTEXT ( 'NONE', #24, 'mechanical' ) ;
#161 = CALENDAR_DATE ( 2020, 22, 12 ) ;
#162 = CC_DESIGN_PERSON_AND_ORGANIZATION_ASSIGNMENT ( #121, #172, ( #158 ) ) ;
#163 = DATE_AND_TIME ( #161, #9 ) ;
#164 = ORIENTED_EDGE ( 'NONE', *, *, #40, .T. ) ;
#165 = DIRECTION ( 'NONE',  ( -1.000000000000000000, -0.000000000000000000, -0.000000000000000000 ) ) ;
#166 = ORIENTED_EDGE ( 'NONE', *, *, #40, .F. ) ;
#167 = UNCERTAINTY_MEASURE_WITH_UNIT (LENGTH_MEASURE( 1.000000000000000082E-05 ), #117, 'distance_accuracy_value', 'NONE');
#168 = PRODUCT_DEFINITION_SHAPE ( 'NONE', 'NONE',  #82 ) ;
#169 = COORDINATED_UNIVERSAL_TIME_OFFSET ( 8, 0, .AHEAD. ) ;
#170 = CLOSED_SHELL ( 'NONE', ( #2, #75, #59, #32 ) ) ;
#171 = DIRECTION ( 'NONE',  ( 0.000000000000000000, 0.000000000000000000, 1.000000000000000000 ) ) ;
#172 = PERSON_AND_ORGANIZATION_ROLE ( 'design_owner' ) ;
#173 = DATE_AND_TIME ( #79, #73 ) ;
#174 = AXIS2_PLACEMENT_3D ( 'NONE', #120, #12, #144 ) ;
#175 = CARTESIAN_POINT ( 'NONE',  ( -4.102566777143633281E-16, 0.000000000000000000, 0.000000000000000000 ) ) ;
ENDSEC;
END-ISO-10303-21;
